As I Lay Dying - Illusions Btab

                                   Illusions                                     

As I Lay Dying 

Tabbed By-Trevor Winchenbaugh
Email-ZeroSkater7286@aol.com
AIM-AoA Avenge SOB



 S S S S S S E  Q    S S S S    E  E  Q    E  E  Q     4x
|-------------------------------|-------------------------||
|*------------------------------|------------------------*||
|*------------------------------|------------------------*||
|---0-0-0-0-0-0-0-------0-0-0-0-|--0--0-------0--0--------||


   E  E  E  E  S S E  E  E     E  E  S S E  E  E  S S E   4x  W                 
----------------------------|-----------------------------||-------------------|
*---------------------------|----------------------------*||-------------------|
*---------------------------|----------------------------*||-------------------|
---0--0--0--0--0-0-0--0--0--|--0--0--0-0-0--0--0--0-0-0---||--0----------------|


  W                     S S S S Q    E.  E.  E     S S S S Q    E.  E.  E   3x
-------------------||---------------------------|---------------------------||
-------------------||*--------------------------|--------------------------*||
-------------------||*---------------5---5---5--|---------------5---5---5--*||
--L----------------||---0-0-0-0-0---------------|--0-0-0-0-0----------------||


  S S S S Q    E.  E.  E     E  E  Q    E  E  Q     
--------------------------|------------------------|
--------------------------|------------------------|
---------------5---5---5--|------------------------|
--0-0-0-0-0---------------|--0----------0----------|


    S S S S E  E  E  S E  S E     S S S S E  E  E  S E  S E   4x
|------------------------------|------------------------------||
|*-----------------------------|-----------------------------*||
|*-----------------------------|-----------------------------*||
|---0-0-0-0-0-----0----0----0--|--0-0-0-0-0-----0----0----0---||


   S S S S Q    E.  E.  E     S S S S Q    E.  E.  E   4x
---------------------------|---------------------------||
*--------------------------|--------------------------*||
*---------------5---5---5--|---------------5---5---5--*||
---0-0-0-0-0---------------|--0-0-0-0-0----------------||


   E  E  E  E  E  E  E  E     E  E  E  E  E  E  E  E   
---------------------------|--------------------------|
*--------------------------|--------------------------|
*--------7--------5-----4--|--------7--------5--------|
---0--8-----0--8-----5-----|--0--8-----0--8-----0--0--|


  E  E  E  E  E  E  E  E     E  E  E  E  E  E  E  E       W                 
--------------------------|---------------------------||-------------------|
--------------------------|--------------------------*||-------------------|
--------7--------5-----4--|--------7--------5--------*||-------------------|
--0--8-----0--8-----5-----|--0--8-----0--8-----0--0---||--0----------------|


  W                   W                   W                   W                 
-------------------|-------------------|-------------------|-------------------|
-------------------|-------------------|-------------------|-------------------|
-------------------|-------------------|-------------------|-------------------|
--L----------------|--L----------------|--L----------------|-------------------|


  W                   W                   W                 
-------------------|-------------------|-------------------|
-------------------|-------------------|-------------------|
-------------------|-------------------|-------------------|
-------------------|-------------------|-------------------|


    E  E  E  E  E  E  E  E     E  E  E  E  E  E  E  E   
|---------------------------|--------------------------|
|*--------------------------|--------------------------|
|*--------7--------5-----4--|--------7--------5--------|
|---0--8-----0--8-----5-----|--0--8-----0--8-----0--0--|


  E  E  E  E  E  E  E  E     E  E  E  E  E  E  E  E       W                 
--------------------------|---------------------------||-------------------|
--------------------------|--------------------------*||-------------------|
--------7--------5-----4--|--------7--------5--------*||-------------------|
--0--8-----0--8-----5-----|--0--8-----0--8-----0--0---||-------------------|


  W                     S S S S E  E  E  S E  S E   4x  W                 
-------------------||-------------------------------||-------------------|
-------------------||*-----------------------------*||-------------------|
-------------------||*-----------------------------*||-------------------|
-------------------||---0-0-0-0-0-----0----0----0---||-------------------|


    W                     E  E  Q    Q    E  E     E  E  Q    E  E  Q     
|---------------------||------------------------|------------------------|
|*-------------------*||------------------------|------------------------|
|*-------------------*||--------6----6----------|--------6----------6----|
|---------------------||--0--0------------0--0--|--L--0-------0--0-------|


  E  E  Q    Q    E  E     E  E  E  E  E  E  E  E   
------------------------|--------------------------|
------------------------|--------------------------|
--------6----6----------|-----6-----6--------6--6--|
--0--0------------0--0--|--L-----0-----0--0--------|


    E  S S S S E  S S S S E  E     E  S S S S E  S S S S E  E     
|-------------------------------|-------------------------------||
|*------------------------------|------------------------------*||
|*--6----------6----------6--6--|--6----------6----------6--6--*||
|------0-0-0-0----0-0-0-0-------|-----0-0-0-0----0-0-0-0--------||


  E  S S S S E  S S S S E  E     S S S S H.                W                 
------------------------------|-----------------------||--------------------|
------------------------------|-----------------------||*-------------------|
--6----------6----------6--6--|-----------------------||*-------------------|
-----0-0-0-0----0-0-0-0-------|--0-0-0-0-0------------||--------------------|


  S S S S H.              E  E  Q    H           W                   
-----------------------|----------------------|--------------------||
-----------------------|----------------------|-------------------*||
-----------------------|----------------------|-------------------*||
--0-0-0-0-0------------|--0-------------------|--------------------||


   S S S S Q    E.  E.  E     S S S S Q    E.  E.  E   
---------------------------|--------------------------|
*--------------------------|--------------------------|
*---------------5---5---5--|---------------5---5---5--|
---0-0-0-0-0---------------|--0-0-0-0-0---------------|


  E  S S S S E  S S S S E  E     E  S S S S E  S S S S E  E     
------------------------------|-------------------------------||
------------------------------|------------------------------*||
--6----------6----------6--6--|--6----------6----------6--6--*||
-----0-0-0-0----0-0-0-0-------|-----0-0-0-0----0-0-0-0--------||


  E  S S S S E  S S S S E  E     W                   W                 
------------------------------|-------------------|-------------------|
------------------------------|-------------------|-------------------|
--6----------6----------6--6--|-------------------|-------------------|
-----0-0-0-0----0-0-0-0-------|-------------------|-------------------|




Duration Legend
---------------
W - whole
H - half
Q - quarter
E - 8th
S - 16th
T - 32nd
X - 64th
. - note dotted
|-n-|  - n-tuplets


Tablature Legend
----------------
L - tied note
x - dead note
g - grace note
(n) - ghost note
> - accentuded note
NH - natural harmonic
AH - artificial harmonic
TH - tapped harmonic
SH - semi harmonic
PH - pitch harmonic
h - hammer on
p - pull off
b - bend
br - bendRelease
pb - preBend
pbr - preBendRelease
brb - bendReleaseBend
\n/ - tremolo bar dip
\n - tremolo bar dive
-/n - tremolo bar Release up
/n\ - tremolo bar inverted dip
/n - tremolo bar return
-\n - tremolo bar Release down
S - shift slide
s - legato slide
/ -  slide into from below or out of upwards
\ -  slide into from above or out of downwards
~ - vibrato
W - wide vibrato
tr - trill
TP - tremolo picking
T - tapping
S - slap
P - pop
< - fade in
^ - brush up
v - brush down
 
illusions btab
Rated: 3.90Reviews: 520