Bob Dylan - Blowing In The Wind Ver4 Tab 1159188id 05062012date

 My interpretation of the song, might take some time to figure out but it should 
sound pretty good once you got it. Use capo if you think it sounds better that way.


-------------------------------------------------------------------------------
                             Blowing In The Wind - Bob Dylan
-------------------------------------------------------------------------------
Tabbed by: J. Petrusson
Tuning: Standard

Intro:

e|---3-------3--3-------3-----|
B|----------------------------|
G|-------0----------0---------|
D|-----0------0---2-------2---|
A|--------------3-----3-------|
E|---3-----3------------------|

Verses:

e|---------------0-------------------------------------|
B|---3-------3-----------3p1-3------0------------0-----|
G|-------0-----------0-----------0----2-0----------0---|
D|-----0-------0---2-----------0------------2----------|
A|---------------3-----3------------------2------------|
E|---3-----3-----------------3-----3----0------0-------|

e|---------------0------------------2h3-2-0---|
B|---3-------3-----------3p1-3---3------------|
G|-------0-----0-----0---------2--------------|
D|-----0-----------2---------0----------0-0---|
A|---------------3-----3----------------------|
E|---3-----3----------------------------------|

Chorus:

e|-------------------------------------------------|
B|---0-1------1p0-------------0-0-0----------0-----|
G|---------0------2---2---2---0-0-0-2-0--------0---|
D|-------2----------0-------0-------------2--------|
A|-----3--------------------------------2----------|
E|----------------2-----2-----3-3-3---0----0-------|

e|---------------------------|
B|---1-----1-0---------------|
G|-------0-----2---2-0---0---|
D|-----2---------0-----4-----|
A|---3-----------------------|
E|-------------2---------3---|

Outro:

e|--------------------------------------3---|
B|------------------------------------3-----|
G|---0---0--0---0---0---0-----------0-------|
D|-----0------0---2-------0-------0---------|
A|--------------3-----3-----0---3-----------|
E|---3-----3------------------3-------------|



************************************

| h   hammer-on
| p   pull-off

************************************ 
blowing in the wind ver4 tab 1159188id 05062012date
Rated: 2.90Reviews: 485