Bob Dylan - Gotta Serve Somebody Btab 906041id 04012010date

 Song: Gotta Serve Somebody
Artist: Bob Dylan
Album: Slow Train Coming
Tabbed by: Carlos Bergen (bergencarlos@gmail.com)


Intro
G|-------------------|2x
D|-------------------|
A|-------------------|
E|--5-3-5-3-5-3-5-3--|


Verse
G|-------------------|10x
D|-------------------|
A|-------------------|
E|--5-3-5-3-5-3-5-3--|


Chorus
G|-------------------|-------------------|-------------------|-------------------|
D|-------------------|-------------------|-------------------|-------------------|
A|--5-3-5-3-5-3-5-3--|--5-3-5-3-5-3-5-3--|-------------------|-------------------|
E|-------------------|-------------------|--5-3-5-3-5-3-5-3--|--5-3-5-3-5-3-5-3--|


G|-------------------|-------------------|
D|-------------------|-------------------|
A|--7-5-7-5-7-5-7-5--|--5-3-5-3-7--5-----|
E|-------------------|-------------------|

Chorus 2
G|-------------------|-------------------|-------------------|-------------------|
D|-------------------|-------------------|-------------------|-------------------|
A|--5-3-5-3-5-3-5-3--|--5-3-5-3-5-3-5-3--|-------------------|-------------------|
E|-------------------|-------------------|--5-3-5-3-5-3-5-3--|--5-3-5-3-5-3-5-3--|


G|-------------------|
D|-------------------|
A|--s7--7-5--3-5-7-3-|
E|-------------------|


Verse 2
G|-------------------|9x|-------------------|
D|-------------------|  |-------------------|
A|-------------------|  |---------3---5-----|
E|--5-3-5-3-5-3-5-3--|  |--3--5-------------|

Order
Intro
Verse 
Chorus
Verse
Chorus 2
Verse 2
Chorus 2
Verse 2
Chorus 
gotta serve somebody btab 906041id 04012010date
Rated: 2.90Reviews: 197