Cky - Attached At The Hip Ver2 Btab

 this is the version i tabbed out and play by

Intro/Verse Thing 3
|-----------------------------|
|-----------------------------|
|--00000000--------3-2--5-----|
|-----------0-3-0-3----3------|

Verse Thing 1
|------------------------------------------|
|------------------------------------------|
|------------------------------------------|
|--55-5555--55-5555--55-5555--55-5555------|

Verse Thing 2
|-----------------------------------------------|
|-----------------------------------------------|
|--33333320--33333320--33333320--33333320-------|
|-----------------------------------------------|

Chorus
|---------------------------------|
|---------------------------------|
|------333------------------------|
|--555----333-000-8888-7777-55----|

Song Structure
Intro/Verse Thing 3 x4 (00:00)
Verse Thing 1 x1 (00:16)
Verse Thing 2 x1 (00:23)
Intro/Verse Thing 3 x4 (00:31)
Verse Thing 1 x1 (00:45)
Verse Thing 2 x1 (00:52)
Chorus x4 (01:00)
Intro/Verse Thing 3 x4 (01:30)
Verse Thing 1 x2 (01:44)
Verse Thing 2 x1 (01:58)
Chorus x4 (02:06)
Intro/Verse Thing 3 x4 (02:38)

well thats it. if you have any questions/comments/suggestions, you can e-mail me at chads_in_hi_fi@yahoo.com 
attached at the hip ver2 btab
Rated: 2.50Reviews: 597