From Autumn To Ashes - Deth Kult Social Club Tab

 Intro:

E------------------------------|
B------------------------------|
G------------------------------|
D-00000----------3--3--3--3----|
A-00000----------3--3--3--3----|
D-00000----------3--3--3--3----|

E------------------------------\----------------|
B-----------------------------------------------| \
G------------------------------  \ All of that--| X3
D-00000----------3--3--3--3---------------------|  /
A-00000----------3--3--3--3---------------------| /
D-00000----------3--3--3--3---------------------|

Chorus:

E-13-12---13-12-------------------------------------------------|
B------13------13--13-11-10-11---10-11-10--11-10-8--------------|
G-------------------------------------------------10--9-10------|
D---------------------------------------------------------------|
A---------------------------------------------------------------|
D---------------------------------------------------------------|

E-13-12---13-12-----------------------------------------------13-|
B------13------13--13-11-10-11---10-11--13-11-13---15--13-17-----|
G----------------------------------------------------------------|
D----------------------------------------------------------------|
A----------------------------------------------------------------|
D----------------------------------------------------------------|

After Chorus:
E-------------------------------------\----------------|
B------------------------------------------------------| \
G-10-10--10--10-10--10--10-10--10-12-12 \ All of that--| X4
D-X--X---X---X--X---X---X--X---X--X--------------------|X  /
A-8--8---8---8--8---8---8--8---8--8--8-----------------| /
D------------------------------------------------------|

Repeat Verse, but when done playing 2nd time, play this:
E------------------------------------|
B------------------------------------|
G-10----12----14----17---------------|
D-X-----X-----X-----X----------------|
A-8-----10----12----15---------------|
D------------------------------------| 
deth kult social club tab
Rated: 2.30Reviews: 269