Krezip - Wont Cry Ver2 Btab

 Artist: Krezip
Title: Won't Cry
Album: Nothing Less
Tabbed by: CE_REAL

/ = slide up
x = mute

Intro

G:|--------|--------|--------|--------|
D:|--------|--------|--------|--------|
A:|--3-65--|-----65-|-----65-|---65---|
E:|--------|-66-----|-33-----|-4----6-| 3x

G:|--------|--------|--------|
D:|--------|--------|--------|
A:|--3-65--|-----65-|-----62-|
E:|--------|-66-----|-33-----|

Verse

G:|--------|--------|--------|--------|
D:|--------|--------|--------|--------|
A:|--33----|--------|--------|------12|
E:|--------|--3/44--|--4-11--|-1/33---| 4x

Pre-Chorus

G:|--------|--------|--------|--------|
D:|--------|--------|--------|--------|
A:|--------|-55--66-|--------|--565---|
E:|--4444--|--------|--6666--|-----6--| 2x

Chorus

G:|--------|--------|--------|--------|
D:|----5---|--------|--------|--------|
A:|--3---3-|-----8--|----5---|---65---|
E:|--------|-66---6-|-33---3-|-4----6-|

G:|--------|--------|--------|--------|
D:|----5---|--------|--------|--------|
A:|--3---3-|-----8--|----5---|--------|
E:|--------|-66---6-|-33---3-|-4----6-| 2x

Post-Chorus

G:|--------|--------|--------|--------|
D:|--------|--------|--------|--------|
A:|--3333--|--------|--------|--------|
E:|--------|--6666--|--3333--|--4444--| 1x

Verse

G:|--------|--------|--------|--------|
D:|--------|--------|--------|--------|
A:|--33----|--------|--------|------12|
E:|--------|--3/44--|--4-11--|-1/33---| 4x

Pre-Chorus

G:|--------|--------|--------|--------|
D:|--------|--------|--------|--------|
A:|--------|-55--66-|--------|--565---|
E:|--4444--|--------|--6666--|-----6--| 2x

Chorus

G:|--------|--------|--------|--------|
D:|----5---|--------|--------|--------|
A:|--3---3-|-----8--|----5---|---65---|
E:|--------|-66---6-|-33---3-|-4----6-|

G:|--------|--------|--------|--------|
D:|----5---|--------|--------|--------|
A:|--3---3-|-----8--|----5---|--------|
E:|--------|-66---6-|-33---3-|-4----6-| 2x

Post-Chorus

G:|--------|--------|--------|--------|
D:|--------|--------|--------|--------|
A:|--3333--|--------|--------|--------|
E:|--------|--6666--|--3333--|--4444--| 1x

Bridge

G:|--------|--------|     |--------|--------|
D:|--------|--------|     |--------|--------|
A:|-3-x-1-x|--------|     |-3-x----|--------|
E:|--------|--3--4--| 3x  |-----3-x|--4--3--| 1x

Chorus

G:|--------|--------|--------|--------|
D:|----5---|--------|--------|--------|
A:|--3---3-|-----8--|----5---|---65---|
E:|--------|-66---6-|-33---3-|-4----6-|

G:|--------|--------|--------|--------|
D:|----5---|--------|--------|--------|
A:|--3---3-|-----8--|----5---|--------|
E:|--------|-66---6-|-33---3-|-4----6-| 2x

Outro
                     Fade out
G:|--------|--------|--------|--------|
D:|--------|--------|--------|--------|
A:|--3333--|--------|--------|--------|
E:|--------|--6666--|--3333--|--4444--| 1x 
wont cry ver2 btab
Rated: 2.40Reviews: 460