Libertines - Cant Stand Me Now Ver3 Tab

                            Can't Stand Me Now                                


                             The Libertines
Pete and Carl (Vocal)
This tab is supposed to sound like what they are singing its pretty easy have fun!




                          H        Q    E  E     Q.     E  E  E  E  E   
-------|-------|-------|----------------------|------------------------|
-------|-------|-------|----------------------|--0---------------------|
-------|-------|-------|----------------------|---------2--1-----------|
-------|-------|-------|-------------------2--|---------------4--L--2--|
-------|-------|-------|----------------------|------------------------|
-------|-------|-------|----------------------|------------------------|


  E  Q    E  E  Q.        Q    E  E  Q    Q       E  Q    E  E  Q.      
-----------------------|-----------------------|-----------------------|
-----------------------|--0--------------------|--0--------------------|
----------1--L--2------|-------2--2--1---------|-----2----1--L---------|
--L--4-----------------|------------------2----|----------------2------|
-----------------------|-----------------------|-----------------------|
-----------------------|-----------------------|-----------------------|


  Q    Q    Q    Q       Q    E  E  Q    Q       E  E  E  E  E  E  E  E   
----------------------|-----------------------|--------------------------|
----------------------|-----------------------|--------------------------|
-------1----1---------|-----------------------|--------------------------|
-----------------2----|--4----4--4--L---------|--2--2--2--2--L--2--2--2--|
----------------------|-----------------------|--------------------------|
----------------------|-----------------------|--------------------------|


  E  E  E  E  E  E  Q       Q.     E  E  E  Q       Q    E  E  Q.     E   
-------------------------|-----------------------|-----------------------|
-------------------------|--0---------------0----|--0----2--0--L---------|
-----------1--L--2--L----|---------2--1--2-------|--------------------2--|
--L--2--4----------------|-----------------------|-----------------------|
-------------------------|-----------------------|-----------------------|
-------------------------|-----------------------|-----------------------|


  E  Q    E  E  Q.        E  Q    E  E  Q    E      E  E  E  E  Q    Q     
-----------------------|-------------------------|------------------------|
--0--------------------|--0----------------------|------------------------|
-----2----1--L---------|-----2----1--L-----------|-----1--1--1--1----1----|
----------------2------|----------------2----4b--|--L---------------------|
-----------------------|-------------------------|------------------------|
-----------------------|-------------------------|------------------------|


  |----3----|                                                                
  Q    Q    Q    Q.     E     Q    Q    Q.     E     E  E  E  E  E  E  Q     
---------------------------|----------------------|-------------------------|
---------------------------|----------------------|-------------------------|
--1------------------------|----------------------|-----------1--L----------|
-------4----4----4------4--|--2----2----2------2--|--2--2--4--------4--2----|
---------------------------|----------------------|-------------------------|
---------------------------|----------------------|-------------------------|


    Q    E  E  E  E  Q       Q    E  E  E  E  Q     
|-------------------------|------------------------|
|-------------------------|------------------------|
|*-------1--1--1----------|-------1--1--1----------|
|*----------------4--2----|----------------4--2----|
|-------------------------|------------------------|
|-------------------------|------------------------|


  |----3----|                                                                
  Q    Q    Q    Q    E  E     Q    Q    E  Q    E     Q.     E  E  E  Q     
----------------------------|-----------------------|-----------------------|
----------------------------|------------0-------0--|--L--------------------|
-------1----1----1----------|--1------------1-------|---------1--1----------|
--L-------------------4--2--|-----------------------|---------------4--2----|
----------------------------|-----------------------|-----------------------|
----------------------------|-----------------------|-----------------------|


                           |----3----|    |----3----|     
  Q    E  E  Q    E  E     Q    Q    Q    Q    Q    Q     
------------------------|--------------------------------|
------------------------|--------------------------------|
----------1--1----------|-------1----1----1--------------|
------------------4--2--|--L-------------------4----2----|
------------------------|--------------------------------|
------------------------|--------------------------------|


  Q    Q    E  Q    E     E  E  E  E  E  E  Q       E  E  E  E  E  E  Q     
-----------------------|-------------------------|-------------------------|
------------0-------0--|--L--0--0--0--0--2--0----|-----------------0-------|
--1------------1-------|-------------------------|-----2--2--2--2-----2----|
-----------------------|-------------------------|-------------------------|
-----------------------|-------------------------|-------------------------|
-----------------------|-------------------------|-------------------------|


  E  E  E  E  E  E  E  E     E  E  E  E  E  E  Q       Q    E  E  E  E  Q     
--------------------------|-------------------------|------------------------|
--0--0--0--0--0--2--0-----|-----------------0-------|------------------------|
-----------------------2--|--2--2--2--2--2-----2----|------------------------|
--------------------------|-------------------------|--4----4--4--4--4--4----|
--------------------------|-------------------------|------------------------|
--------------------------|-------------------------|------------------------|


  E  E  E  E  Q    E  E     E  E  Q    Q    E  E     Q    Q    H         
-------------------------|------------------------|---------------------|
--0--0--0--0--L----------|------------------------|---------------------|
-------------------1-----|------------------1-----|---------------------|
----------------------2--|--L--2--2----4-------2--|--L------------------|
-------------------------|------------------------|---------------------|
-------------------------|------------------------|---------------------|


  E  E  Q    Q    E  E     Q    Q    H           Q    Q    Q    E  E   
------------------------|---------------------|-----------------------|
------------------------|---------------------|-----------------------|
------------------1-----|---------------------|-----------------1-----|
-----2--2----4-------2--|--L------------------|--2----2----4-------2--|
------------------------|---------------------|-----------------------|
------------------------|---------------------|-----------------------|


  Q    Q    H           E  E  Q    Q    E  E     E  E  Q    E     E  E  E   
---------------------|------------------------|-----0--0-------------------|
---------------------|------------------------|-------------2pbr--L--2--0--|
---------------------|------------------1-----|----------------------------|
--L------------------|-----2--2----4-------2--|--L-------------------------|
---------------------|------------------------|----------------------------|
---------------------|------------------------|----------------------------|


                                    |----3----|                               
  Q    Q    Q    Q       Q    E  E  Q    Q    Q       Q.        E  E  Q.      
-------0----0----0----|--0----0--2--L----0---------|-------------------------|
--L-------------------|-----------------------4----|--2pbr------L--L--2------|
----------------------|----------------------------|-------------------------|
----------------------|----------------------------|-------------------------|
----------------------|----------------------------|-------------------------|
----------------------|----------------------------|-------------------------|


  H        H           Q    E  E  E  E  E  E     Q    E  E  E  Q.      
--------------------|-------------------------|-----------------------|
--L-----------------|----------2--L--2--2--2--|--0----0--2--L--0------|
--------------------|-------1-----------------|-----------------------|
--------------------|-------------------------|-----------------------|
--------------------|-------------------------|-----------------------|
--------------------|-------------------------|-----------------------|


  Q    E  E  E  E  E  E     E  Q    E  E  E  Q       E  E  E  E  Q    E  E   
-------------------------|------------------------|--------0--0--0----0--0--|
-------------------------|------------------------|-----0-------------------|
-------------------------|----------1--L----------|-------------------------|
-------------2--2--2--2--|--2--4----------4--2----|-------------------------|
----------4--------------|------------------------|-------------------------|
-------------------------|------------------------|-------------------------|


              |----3----|       |----3----|                                     
  E  E  E  E  Q    Q    Q       Q    Q    Q    H           H        Q    E  E   
--L--0--0--0--2----0---------|-------0------------------|----------------------|
------------------------4----|--L---------2----L--------|----------------2--2--|
-----------------------------|--------------------------|----------------------|
-----------------------------|--------------------------|----------------------|
-----------------------------|--------------------------|----------------------|
-----------------------------|--------------------------|----------------------|


  Q    Q    Q    Q       Q    E  E  E  Q    E     H        E  E  E  E   
----------------------|------------------------|-----------------------|
--0---------2---------|--0----0--2--L--0----L--|-----------------------|
----------------------|------------------------|-----------------------|
----------------------|------------------------|--------------2--2--2--|
----------------------|------------------------|-----------------------|
----------------------|------------------------|-----------------------|


  Q    E  E  E  E  Q         E  E  Q    Q    E  E     Q    Q    H         
-------------------------||------------------------|---------------------|
-------------------------||------------------------|---------------------|
----------1--L----------*||------------------1-----|---------------------|
--2----4--------4--2----*||-----2--2----4-------2--|--L------------------|
-------------------------||------------------------|---------------------|
-------------------------||------------------------|---------------------|


  E  E  Q    Q    E  E     E  E  Q    Q    E  E     E  E  Q    Q    E  E   
-----0--0----2----4--0--|--L---------------------|-----0--0----2----4--0--|
------------------------|------------------------|------------------------|
------------------------|------------------1-----|------------------------|
------------------------|-----2--2----4-------2--|--L---------------------|
------------------------|------------------------|------------------------|
------------------------|------------------------|------------------------|


  E  E  Q    Q    E  E     E  E  Q    Q    E  E     E  E  Q    Q    E  E   
--L--0--0----2----4--0--|--L--0--0----2----4--0--|--L--0--0----2----4--4--|
------------------------|------------------------|------------------------|
------------------------|------------------------|------------------------|
------------------------|------------------------|------------------------|
------------------------|------------------------|------------------------|
------------------------|------------------------|------------------------|


  E  E  Q    Q    E  E     E  E  Q    E     E  E  E     Q    Q    H         
--L--L--L----L-------0--|--L--0--0-------------------|---------------------|
------------------------|-------------2pbr--L--2--0--|--L------------------|
------------------------|----------------------------|---------------------|
------------------------|--L-------------------------|---------------------|
------------------------|----------------------------|---------------------|
------------------------|----------------------------|---------------------|


  E  E  Q    Q    E  E     W                   H        H                 
------------------------|-------------------|--------------------|-------|
-----0--0----0----0--0--|--L----------------|--L-----------------|-------|
------------------------|-------------------|--------------------|-------|
------------------------|-------------------|--------------------|-------|
------------------------|-------------------|--------------------|-------|
------------------------|-------------------|--------------------|-------|


-------|-------|-------|-------|-------|-------|-------|-------|-------|-------|
-------|-------|-------|-------|-------|-------|-------|-------|-------|-------|
-------|-------|-------|-------|-------|-------|-------|-------|-------|-------|
-------|-------|-------|-------|-------|-------|-------|-------|-------|-------|
-------|-------|-------|-------|-------|-------|-------|-------|-------|-------|
-------|-------|-------|-------|-------|-------|-------|-------|-------|-------|


-------|-------|-------|-------||
-------|-------|-------|-------||
-------|-------|-------|-------||
-------|-------|-------|-------||
-------|-------|-------|-------||
-------|-------|-------|-------||




Duration Legend
---------------
W - whole
H - half
Q - quarter
E - 8th
S - 16th
T - 32nd
X - 64th
. - note dotted
|-n-|  - n-tuplets


Tablature Legend
----------------
L - tied note
x - dead note
g - grace note
(n) - ghost note
> - accentuded note
NH - natural harmonic
AH - artificial harmonic
TH - tapped harmonic
SH - semi harmonic
PH - pitch harmonic
h - hammer on
p - pull off
b - bend
br - bendRelease
pb - preBend
pbr - preBendRelease
brb - bendReleaseBend
\n/ - tremolo bar dip
\n - tremolo bar dive
-/n - tremolo bar Release up
/n\ - tremolo bar inverted dip
/n - tremolo bar return
-\n - tremolo bar Release down
S - shift slide
s - legato slide
/ -  slide into from below or out of upwards
\ -  slide into from above or out of downwards
~ - vibrato
W - wide vibrato
tr - trill
TP - tremolo picking
T - tapping
S - slap
P - pop
< - fade in
^ - brush up
v - brush down
 
cant stand me now ver3 tab
Rated: 3.80Reviews: 459