Tegan And Sara - Give Chase Tab

 TITLE: Give Chase
ARTIST: Tegan and Sara

Tuning: standard

INTRO/VERSE (palm-muted):
      [x16]  [x16]
e|------|------|
B|------|------|
G|--11--|--11--|
D|--11--|--11--|
A|---9--|---8--|
E|------|------|

CHORUS (palm-muted):
      [x8]   [x8]   [x16]
e|------|------|------|
B|------|------|------|
G|--11--|------|------|
D|--11--|--12--|--14--|
A|---9--|--12--|--14--|
E|------|--10--|--12--|

***Neither verse 2 nor the 2nd chorus are palm muted***
 
give chase tab
Rated: 2.60Reviews: 32