Young Guns - Weight Of The World Solo Tab

 Chorus:


e|--------10-------13--------------------------------------------------------------|
B|---11--------11-------11---13-13-13--11-11-11-11-11-11--10-10-10-10-10-10--------|
G|-12--12--------12-------12-------------------------------------------------------|
D|---------------------------------------------------------------------------------|
A|---------------------------------------------------------------------------------|
E|---------------------------------------------------------------------------------|

e|--------10-------13--------------------------------------------------------------|
B|---11--------11-------11---13-13-13--11-11-11-11-11-11--13-13-13-13-13---11------|
G|-12--12--------12-------12--------------------------------------------------12---|
D|---------------------------------------------------------------------------------|
A|---------------------------------------------------------------------------------|
E|---------------------------------------------------------------------------------| 
weight of the world solo tab
Rated: 2.20Reviews: 885